ISO-10303-21;
HEADER;
FILE_DESCRIPTION (( 'STEP AP203' ),
    '1' );
FILE_NAME ('MQWP-12.7-1064.STEP',
    '2020-12-22T09:28:24',
    ( '' ),
    ( '' ),
    'SwSTEP 2.0',
    'SolidWorks 2020',
    '' );
FILE_SCHEMA (( 'CONFIG_CONTROL_DESIGN' ));
ENDSEC;

DATA;
#1 = EDGE_LOOP ( 'NONE', ( #154, #69, #175, #141 ) ) ;
#2 = PLANE ( 'NONE',  #112 ) ;
#3 = CIRCLE ( 'NONE', #100, 3.000000000000000000 ) ;
#4 = DIRECTION ( 'NONE',  ( -1.000000000000000000, -0.000000000000000000, -0.000000000000000000 ) ) ;
#5 = APPROVAL_DATE_TIME ( #30, #105 ) ;
#6 = AXIS2_PLACEMENT_3D ( 'NONE', #59, #96, #71 ) ;
#7 = COORDINATED_UNIVERSAL_TIME_OFFSET ( 8, 0, .AHEAD. ) ;
#8 = CALENDAR_DATE ( 2020, 22, 12 ) ;
#9 = COORDINATED_UNIVERSAL_TIME_OFFSET ( 8, 0, .AHEAD. ) ;
#10 = DATE_TIME_ROLE ( 'classification_date' ) ;
#11 = SHAPE_DEFINITION_REPRESENTATION ( #93, #119 ) ;
#12 = VERTEX_POINT ( 'NONE', #84 ) ;
#13 = EDGE_CURVE ( 'NONE', #127, #124, #152, .T. ) ;
#14 = LINE ( 'NONE', #24, #20 ) ;
#15 = ORIENTED_EDGE ( 'NONE', *, *, #118, .F. ) ;
#16 = DIRECTION ( 'NONE',  ( -0.000000000000000000, 0.000000000000000000, 1.000000000000000000 ) ) ;
#17 = AXIS2_PLACEMENT_3D ( 'NONE', #85, #75, #66 ) ;
#18 = PERSON_AND_ORGANIZATION ( #51, #91 ) ;
#19 = EDGE_CURVE ( 'NONE', #60, #127, #14, .T. ) ;
#20 = VECTOR ( 'NONE', #125, 1000.000000000000000 ) ;
#21 = PERSON_AND_ORGANIZATION ( #51, #91 ) ;
#22 = APPROVAL_ROLE ( '' ) ;
#23 = APPLICATION_PROTOCOL_DEFINITION ( 'international standard', 'config_control_design', 1994, #35 ) ;
#24 = CARTESIAN_POINT ( 'NONE',  ( 0.000000000000000000, 3.673940397442059868E-16, -3.000000000000000000 ) ) ;
#25 = CC_DESIGN_APPROVAL ( #136, ( #120 ) ) ;
#26 = CYLINDRICAL_SURFACE ( 'NONE', #109, 3.000000000000000000 ) ;
#27 = APPROVAL ( #158, 'UNSPECIFIED' ) ;
#28 = VECTOR ( 'NONE', #132, 1000.000000000000000 ) ;
#29 = PRODUCT_RELATED_PRODUCT_CATEGORY ( 'detail', '', ( #123 ) ) ;
#30 = DATE_AND_TIME ( #167, #64 ) ;
#31 = COORDINATED_UNIVERSAL_TIME_OFFSET ( 8, 0, .AHEAD. ) ;
#32 = DATE_AND_TIME ( #133, #81 ) ;
#33 = CARTESIAN_POINT ( 'NONE',  ( 2.449293598294706907E-16, 3.673940397442059868E-16, -3.000000000000000000 ) ) ;
#34 = APPROVAL_PERSON_ORGANIZATION ( #128, #105, #77 ) ;
#35 = APPLICATION_CONTEXT ( 'configuration controlled 3d designs of mechanical parts and assemblies' ) ;
#36 = CARTESIAN_POINT ( 'NONE',  ( 0.000000000000000000, 0.000000000000000000, 0.000000000000000000 ) ) ;
#37 = APPROVAL_DATE_TIME ( #32, #136 ) ;
#38 = PERSON_AND_ORGANIZATION_ROLE ( 'design_supplier' ) ;
#39 = LOCAL_TIME ( 17, 28, 24.00000000000000000, #145 ) ;
#40 = CARTESIAN_POINT ( 'NONE',  ( 2.449293598294706907E-16, 0.000000000000000000, 0.000000000000000000 ) ) ;
#41 = DIRECTION ( 'NONE',  ( -1.000000000000000000, -0.000000000000000000, -0.000000000000000000 ) ) ;
#42 = FACE_OUTER_BOUND ( 'NONE', #94, .T. ) ;
#43 = EDGE_LOOP ( 'NONE', ( #82, #83 ) ) ;
#44 = FACE_OUTER_BOUND ( 'NONE', #1, .T. ) ;
#45 = FACE_OUTER_BOUND ( 'NONE', #43, .T. ) ;
#46 = ADVANCED_FACE ( 'NONE', ( #108 ), #26, .T. ) ;
#47 =( NAMED_UNIT ( * ) SI_UNIT ( $, .STERADIAN. ) SOLID_ANGLE_UNIT ( ) );
#48 = LINE ( 'NONE', #87, #28 ) ;
#49 = CC_DESIGN_DATE_AND_TIME_ASSIGNMENT ( #90, #156, ( #174 ) ) ;
#50 = CARTESIAN_POINT ( 'NONE',  ( 2.449293598294706907E-16, 0.000000000000000000, 0.000000000000000000 ) ) ;
#51 = PERSON ( 'UNSPECIFIED', 'UNSPECIFIED', 'UNSPECIFIED', ('UNSPECIFIED'), ('UNSPECIFIED'), ('UNSPECIFIED') ) ;
#52 = PERSON_AND_ORGANIZATION ( #51, #91 ) ;
#53 = CIRCLE ( 'NONE', #144, 3.000000000000000000 ) ;
#54 = PERSON_AND_ORGANIZATION ( #51, #91 ) ;
#55 = UNCERTAINTY_MEASURE_WITH_UNIT (LENGTH_MEASURE( 1.000000000000000082E-05 ), #160, 'distance_accuracy_value', 'NONE');
#56 = ADVANCED_FACE ( 'NONE', ( #44 ), #138, .T. ) ;
#57 = APPLICATION_CONTEXT ( 'configuration controlled 3d designs of mechanical parts and assemblies' ) ;
#58 =( GEOMETRIC_REPRESENTATION_CONTEXT ( 3 ) GLOBAL_UNCERTAINTY_ASSIGNED_CONTEXT ( ( #55 ) ) GLOBAL_UNIT_ASSIGNED_CONTEXT ( ( #160, #169, #47 ) ) REPRESENTATION_CONTEXT ( 'NONE', 'WORKASPACE' ) );
#59 = CARTESIAN_POINT ( 'NONE',  ( 0.000000000000000000, 0.000000000000000000, 0.000000000000000000 ) ) ;
#60 = VERTEX_POINT ( 'NONE', #155 ) ;
#61 = CIRCLE ( 'NONE', #102, 3.000000000000000000 ) ;
#62 = PERSON_AND_ORGANIZATION_ROLE ( 'design_owner' ) ;
#63 = CARTESIAN_POINT ( 'NONE',  ( 2.449293598294706907E-16, 0.000000000000000000, 3.000000000000000000 ) ) ;
#64 = LOCAL_TIME ( 17, 28, 24.00000000000000000, #9 ) ;
#65 = DATE_AND_TIME ( #168, #39 ) ;
#66 = DIRECTION ( 'NONE',  ( 0.000000000000000000, 0.000000000000000000, -1.000000000000000000 ) ) ;
#67 = APPROVAL_STATUS ( 'not_yet_approved' ) ;
#68 = ADVANCED_FACE ( 'NONE', ( #42 ), #2, .F. ) ;
#69 = ORIENTED_EDGE ( 'NONE', *, *, #19, .T. ) ;
#70 = CLOSED_SHELL ( 'NONE', ( #56, #46, #68, #121 ) ) ;
#71 = DIRECTION ( 'NONE',  ( 0.000000000000000000, 0.000000000000000000, 1.000000000000000000 ) ) ;
#72 = CARTESIAN_POINT ( 'NONE',  ( 0.000000000000000000, 0.000000000000000000, 0.000000000000000000 ) ) ;
#73 = CARTESIAN_POINT ( 'NONE',  ( 0.9999999999999995559, 0.000000000000000000, 0.000000000000000000 ) ) ;
#74 = APPROVAL_DATE_TIME ( #115, #27 ) ;
#75 = DIRECTION ( 'NONE',  ( 1.000000000000000000, 0.000000000000000000, 0.000000000000000000 ) ) ;
#76 = PERSON_AND_ORGANIZATION ( #51, #91 ) ;
#77 = APPROVAL_ROLE ( '' ) ;
#78 = LOCAL_TIME ( 17, 28, 24.00000000000000000, #31 ) ;
#79 = DIRECTION ( 'NONE',  ( 0.000000000000000000, 0.000000000000000000, 1.000000000000000000 ) ) ;
#80 = CC_DESIGN_APPROVAL ( #27, ( #174 ) ) ;
#81 = LOCAL_TIME ( 17, 28, 24.00000000000000000, #7 ) ;
#82 = ORIENTED_EDGE ( 'NONE', *, *, #170, .T. ) ;
#83 = ORIENTED_EDGE ( 'NONE', *, *, #13, .T. ) ;
#84 = CARTESIAN_POINT ( 'NONE',  ( 0.9999999999999995559, 0.000000000000000000, 3.000000000000000000 ) ) ;
#85 = CARTESIAN_POINT ( 'NONE',  ( 1.224646799147353454E-16, 3.000000000000000000, 0.000000000000000000 ) ) ;
#86 = PLANE ( 'NONE',  #17 ) ;
#87 = CARTESIAN_POINT ( 'NONE',  ( 0.000000000000000000, 0.000000000000000000, 3.000000000000000000 ) ) ;
#88 = EDGE_CURVE ( 'NONE', #12, #60, #53, .T. ) ;
#89 = DIRECTION ( 'NONE',  ( -1.000000000000000000, -0.000000000000000000, -0.000000000000000000 ) ) ;
#90 = DATE_AND_TIME ( #113, #78 ) ;
#91 = ORGANIZATION ( 'UNSPECIFIED', 'UNSPECIFIED', '' ) ;
#92 = DESIGN_CONTEXT ( 'detailed design', #35, 'design' ) ;
#93 = PRODUCT_DEFINITION_SHAPE ( 'NONE', 'NONE',  #174 ) ;
#94 = EDGE_LOOP ( 'NONE', ( #106, #15 ) ) ;
#95 = DIRECTION ( 'NONE',  ( 0.000000000000000000, 0.000000000000000000, 1.000000000000000000 ) ) ;
#96 = DIRECTION ( 'NONE',  ( -1.000000000000000000, -0.000000000000000000, -0.000000000000000000 ) ) ;
#97 = APPROVAL_ROLE ( '' ) ;
#98 = APPLICATION_PROTOCOL_DEFINITION ( 'international standard', 'config_control_design', 1994, #57 ) ;
#99 = DIRECTION ( 'NONE',  ( 1.000000000000000000, 0.000000000000000000, 0.000000000000000000 ) ) ;
#100 = AXIS2_PLACEMENT_3D ( 'NONE', #50, #89, #172 ) ;
#101 = PERSON_AND_ORGANIZATION_ROLE ( 'creator' ) ;
#102 = AXIS2_PLACEMENT_3D ( 'NONE', #164, #41, #95 ) ;
#103 = CC_DESIGN_PERSON_AND_ORGANIZATION_ASSIGNMENT ( #76, #62, ( #123 ) ) ;
#104 = DIRECTION ( 'NONE',  ( 0.000000000000000000, 0.000000000000000000, 1.000000000000000000 ) ) ;
#105 = APPROVAL ( #146, 'UNSPECIFIED' ) ;
#106 = ORIENTED_EDGE ( 'NONE', *, *, #88, .F. ) ;
#107 = MANIFOLD_SOLID_BREP ( 'Ðý×', #70 ) ;
#108 = FACE_OUTER_BOUND ( 'NONE', #140, .T. ) ;
#109 = AXIS2_PLACEMENT_3D ( 'NONE', #72, #122, #79 ) ;
#110 = ORIENTED_EDGE ( 'NONE', *, *, #13, .F. ) ;
#111 = APPROVAL_PERSON_ORGANIZATION ( #18, #27, #97 ) ;
#112 = AXIS2_PLACEMENT_3D ( 'NONE', #143, #139, #16 ) ;
#113 = CALENDAR_DATE ( 2020, 22, 12 ) ;
#114 = CC_DESIGN_PERSON_AND_ORGANIZATION_ASSIGNMENT ( #116, #101, ( #171 ) ) ;
#115 = DATE_AND_TIME ( #8, #129 ) ;
#116 = PERSON_AND_ORGANIZATION ( #51, #91 ) ;
#117 = CC_DESIGN_PERSON_AND_ORGANIZATION_ASSIGNMENT ( #21, #161, ( #120 ) ) ;
#118 = EDGE_CURVE ( 'NONE', #60, #12, #61, .T. ) ;
#119 = ADVANCED_BREP_SHAPE_REPRESENTATION ( 'MQWP-12.7-1064', ( #107, #126 ), #58 ) ;
#120 = SECURITY_CLASSIFICATION ( '', '', #173 ) ;
#121 = ADVANCED_FACE ( 'NONE', ( #45 ), #86, .F. ) ;
#122 = DIRECTION ( 'NONE',  ( -1.000000000000000000, -0.000000000000000000, -0.000000000000000000 ) ) ;
#123 = PRODUCT ( 'MQWP-12.7-1064', 'MQWP-12.7-1064', '', ( #130 ) ) ;
#124 = VERTEX_POINT ( 'NONE', #63 ) ;
#125 = DIRECTION ( 'NONE',  ( -1.000000000000000000, -0.000000000000000000, -0.000000000000000000 ) ) ;
#126 = AXIS2_PLACEMENT_3D ( 'NONE', #36, #135, #99 ) ;
#127 = VERTEX_POINT ( 'NONE', #33 ) ;
#128 = PERSON_AND_ORGANIZATION ( #51, #91 ) ;
#129 = LOCAL_TIME ( 17, 28, 24.00000000000000000, #134 ) ;
#130 = MECHANICAL_CONTEXT ( 'NONE', #57, 'mechanical' ) ;
#131 = PERSON_AND_ORGANIZATION ( #51, #91 ) ;
#132 = DIRECTION ( 'NONE',  ( -1.000000000000000000, -0.000000000000000000, -0.000000000000000000 ) ) ;
#133 = CALENDAR_DATE ( 2020, 22, 12 ) ;
#134 = COORDINATED_UNIVERSAL_TIME_OFFSET ( 8, 0, .AHEAD. ) ;
#135 = DIRECTION ( 'NONE',  ( 0.000000000000000000, 0.000000000000000000, 1.000000000000000000 ) ) ;
#136 = APPROVAL ( #67, 'UNSPECIFIED' ) ;
#137 = CC_DESIGN_APPROVAL ( #105, ( #171 ) ) ;
#138 = CYLINDRICAL_SURFACE ( 'NONE', #6, 3.000000000000000000 ) ;
#139 = DIRECTION ( 'NONE',  ( -1.000000000000000000, 0.000000000000000000, -0.000000000000000000 ) ) ;
#140 = EDGE_LOOP ( 'NONE', ( #148, #151, #150, #110 ) ) ;
#141 = ORIENTED_EDGE ( 'NONE', *, *, #153, .F. ) ;
#142 = CC_DESIGN_DATE_AND_TIME_ASSIGNMENT ( #65, #10, ( #120 ) ) ;
#143 = CARTESIAN_POINT ( 'NONE',  ( 0.9999999999999997780, 3.000000000000000000, 0.000000000000000000 ) ) ;
#144 = AXIS2_PLACEMENT_3D ( 'NONE', #73, #4, #104 ) ;
#145 = COORDINATED_UNIVERSAL_TIME_OFFSET ( 8, 0, .AHEAD. ) ;
#146 = APPROVAL_STATUS ( 'not_yet_approved' ) ;
#147 = CC_DESIGN_PERSON_AND_ORGANIZATION_ASSIGNMENT ( #52, #157, ( #174 ) ) ;
#148 = ORIENTED_EDGE ( 'NONE', *, *, #19, .F. ) ;
#149 = CC_DESIGN_SECURITY_CLASSIFICATION ( #120, ( #171 ) ) ;
#150 = ORIENTED_EDGE ( 'NONE', *, *, #153, .T. ) ;
#151 = ORIENTED_EDGE ( 'NONE', *, *, #118, .T. ) ;
#152 = CIRCLE ( 'NONE', #159, 3.000000000000000000 ) ;
#153 = EDGE_CURVE ( 'NONE', #12, #124, #48, .T. ) ;
#154 = ORIENTED_EDGE ( 'NONE', *, *, #88, .T. ) ;
#155 = CARTESIAN_POINT ( 'NONE',  ( 0.9999999999999995559, 3.673940397442059868E-16, -3.000000000000000000 ) ) ;
#156 = DATE_TIME_ROLE ( 'creation_date' ) ;
#157 = PERSON_AND_ORGANIZATION_ROLE ( 'creator' ) ;
#158 = APPROVAL_STATUS ( 'not_yet_approved' ) ;
#159 = AXIS2_PLACEMENT_3D ( 'NONE', #40, #166, #165 ) ;
#160 =( LENGTH_UNIT ( ) NAMED_UNIT ( * ) SI_UNIT ( .MILLI., .METRE. ) );
#161 = PERSON_AND_ORGANIZATION_ROLE ( 'classification_officer' ) ;
#162 = APPROVAL_PERSON_ORGANIZATION ( #131, #136, #22 ) ;
#163 = CC_DESIGN_PERSON_AND_ORGANIZATION_ASSIGNMENT ( #54, #38, ( #171 ) ) ;
#164 = CARTESIAN_POINT ( 'NONE',  ( 0.9999999999999995559, 0.000000000000000000, 0.000000000000000000 ) ) ;
#165 = DIRECTION ( 'NONE',  ( 0.000000000000000000, 0.000000000000000000, 1.000000000000000000 ) ) ;
#166 = DIRECTION ( 'NONE',  ( -1.000000000000000000, -0.000000000000000000, -0.000000000000000000 ) ) ;
#167 = CALENDAR_DATE ( 2020, 22, 12 ) ;
#168 = CALENDAR_DATE ( 2020, 22, 12 ) ;
#169 =( NAMED_UNIT ( * ) PLANE_ANGLE_UNIT ( ) SI_UNIT ( $, .RADIAN. ) );
#170 = EDGE_CURVE ( 'NONE', #124, #127, #3, .T. ) ;
#171 = PRODUCT_DEFINITION_FORMATION_WITH_SPECIFIED_SOURCE ( 'ANY', '', #123, .NOT_KNOWN. ) ;
#172 = DIRECTION ( 'NONE',  ( 0.000000000000000000, 0.000000000000000000, 1.000000000000000000 ) ) ;
#173 = SECURITY_CLASSIFICATION_LEVEL ( 'unclassified' ) ;
#174 = PRODUCT_DEFINITION ( 'UNKNOWN', '', #171, #92 ) ;
#175 = ORIENTED_EDGE ( 'NONE', *, *, #170, .F. ) ;
ENDSEC;
END-ISO-10303-21;
